  0
SECTION
  2
HEADER
  9
$ACADVER
  1
AC1009
  9
$INSBASE
 10
0.0
 20
0.0
 30
0.0
  9
$EXTMIN
 10
-0.8712233801471498
 20
-2.2541001073792168
 30
0.0
  9
$EXTMAX
 10
6.580516046865128
 20
10.06348629070327
 30
0.0
  9
$LIMMIN
 10
0.0
 20
0.0
  9
$LIMMAX
 10
12.0
 20
9.0
  9
$ORTHOMODE
 70
     1
  9
$REGENMODE
 70
     1
  9
$FILLMODE
 70
     1
  9
$QTEXTMODE
 70
     0
  9
$MIRRTEXT
 70
     1
  9
$DRAGMODE
 70
     2
  9
$LTSCALE
 40
0.6
  9
$OSMODE
 70
   111
  9
$ATTMODE
 70
     1
  9
$TEXTSIZE
 40
0.2
  9
$TRACEWID
 40
0.05
  9
$TEXTSTYLE
  7
ARIAL
  9
$CLAYER
  8
ADAPTER
  9
$CELTYPE
  6
BYLAYER
  9
$CECOLOR
 62
   256
  9
$DIMSCALE
 40
1.0
  9
$DIMASZ
 40
0.125
  9
$DIMEXO
 40
0.0625
  9
$DIMDLI
 40
0.25
  9
$DIMRND
 40
0.0
  9
$DIMDLE
 40
0.0
  9
$DIMEXE
 40
0.0625
  9
$DIMTP
 40
0.0
  9
$DIMTM
 40
0.0
  9
$DIMTXT
 40
0.125
  9
$DIMCEN
 40
0.09
  9
$DIMTSZ
 40
0.0
  9
$DIMTOL
 70
     0
  9
$DIMLIM
 70
     0
  9
$DIMTIH
 70
     1
  9
$DIMTOH
 70
     1
  9
$DIMSE1
 70
     0
  9
$DIMSE2
 70
     0
  9
$DIMTAD
 70
     0
  9
$DIMZIN
 70
     4
  9
$DIMBLK
  1

  9
$DIMASO
 70
     1
  9
$DIMSHO
 70
     1
  9
$DIMPOST
  1

  9
$DIMAPOST
  1

  9
$DIMALT
 70
     0
  9
$DIMALTD
 70
     2
  9
$DIMALTF
 40
25.399999999999999
  9
$DIMLFAC
 40
1.0
  9
$DIMTOFL
 70
     0
  9
$DIMTVP
 40
0.0
  9
$DIMTIX
 70
     0
  9
$DIMSOXD
 70
     0
  9
$DIMSAH
 70
     0
  9
$DIMBLK1
  1

  9
$DIMBLK2
  1

  9
$DIMSTYLE
  2
STANDARD
  9
$DIMCLRD
 70
   256
  9
$DIMCLRE
 70
   256
  9
$DIMCLRT
 70
   256
  9
$DIMTFAC
 40
1.0
  9
$DIMGAP
 40
0.09
  9
$LUNITS
 70
     2
  9
$LUPREC
 70
     4
  9
$SKETCHINC
 40
0.1
  9
$FILLETRAD
 40
0.5
  9
$AUNITS
 70
     0
  9
$AUPREC
 70
     0
  9
$MENU
  1
.
  9
$ELEVATION
 40
0.0
  9
$PELEVATION
 40
0.0
  9
$THICKNESS
 40
0.0
  9
$LIMCHECK
 70
     0
  9
$BLIPMODE
 70
     0
  9
$CHAMFERA
 40
0.0
  9
$CHAMFERB
 40
0.0
  9
$SKPOLY
 70
     0
  9
$TDCREATE
 40
2452392.3517971062
  9
$TDUPDATE
 40
2452557.3418228012
  9
$TDINDWG
 40
0.122774537
  9
$TDUSRTIMER
 40
0.1227719907
  9
$USRTIMER
 70
     1
  9
$ANGBASE
 50
0.0
  9
$ANGDIR
 70
     0
  9
$PDMODE
 70
     3
  9
$PDSIZE
 40
0.0
  9
$PLINEWID
 40
0.0
  9
$COORDS
 70
     2
  9
$SPLFRAME
 70
     0
  9
$SPLINETYPE
 70
     6
  9
$SPLINESEGS
 70
     8
  9
$ATTDIA
 70
     0
  9
$ATTREQ
 70
     1
  9
$HANDLING
 70
  4097
  9
$HANDSEED
  5
D93
  9
$SURFTAB1
 70
     6
  9
$SURFTAB2
 70
     6
  9
$SURFTYPE
 70
     6
  9
$SURFU
 70
     6
  9
$SURFV
 70
     6
  9
$UCSNAME
  2

  9
$UCSORG
 10
0.0
 20
0.0
 30
0.0
  9
$UCSXDIR
 10
1.0
 20
0.0
 30
0.0
  9
$UCSYDIR
 10
0.0
 20
1.0
 30
0.0
  9
$PUCSNAME
  2

  9
$PUCSORG
 10
0.0
 20
0.0
 30
0.0
  9
$PUCSXDIR
 10
1.0
 20
0.0
 30
0.0
  9
$PUCSYDIR
 10
0.0
 20
1.0
 30
0.0
  9
$USERI1
 70
     0
  9
$USERI2
 70
     0
  9
$USERI3
 70
     0
  9
$USERI4
 70
     0
  9
$USERI5
 70
     0
  9
$USERR1
 40
1.0
  9
$USERR2
 40
25.399999999999999
  9
$USERR3
 40
0.0
  9
$USERR4
 40
0.0
  9
$USERR5
 40
0.0
  9
$WORLDVIEW
 70
     1
  9
$SHADEDGE
 70
     3
  9
$SHADEDIF
 70
    70
  9
$TILEMODE
 70
     1
  9
$MAXACTVP
 70
    48
  9
$PLIMCHECK
 70
     0
  9
$PEXTMIN
 10
1.0000000000000000E+020
 20
1.0000000000000000E+020
 30
1.0000000000000000E+020
  9
$PEXTMAX
 10
-1.0000000000000000E+020
 20
-1.0000000000000000E+020
 30
-1.0000000000000000E+020
  9
$PLIMMIN
 10
0.0
 20
0.0
  9
$PLIMMAX
 10
12.0
 20
9.0
  9
$UNITMODE
 70
     0
  9
$VISRETAIN
 70
     1
  9
$PLINEGEN
 70
     0
  9
$PSLTSCALE
 70
     1
  0
ENDSEC
  0
SECTION
  2
TABLES
  0
TABLE
  2
VPORT
 70
     2
  0
VPORT
  2
*ACTIVE
 70
     0
 10
0.0
 20
0.0
 11
1.0
 21
1.0
 12
2.854298135844008
 22
3.9046141531691019
 13
0.0
 23
0.0
 14
0.5
 24
0.5
 15
0.5
 25
0.5
 16
0.0
 26
0.0
 36
1.0
 17
0.0
 27
0.0
 37
0.0
 40
12.65135713472216
 41
1.3665594855305461
 42
50.0
 43
0.0
 44
0.0
 50
0.0
 51
0.0
 71
     0
 72
   100
 73
     1
 74
     2
 75
     0
 76
     0
 77
     0
 78
     0
  0
ENDTAB
  0
TABLE
  2
LTYPE
 70
     3
  0
LTYPE
  2
CONTINUOUS
 70
     0
  3
Solid line
 72
    65
 73
     0
 40
0.0
  0
LTYPE
  2
CENTER
 70
     0
  3
Center ____ _ ____ _ ____ _ ____ _ ____ _ ____
 72
    65
 73
     4
 40
2.0
 49
1.25
 49
-0.25
 49
0.25
 49
-0.25
  0
LTYPE
  2
HIDDEN
 70
     0
  3
Hidden __ __ __ __ __ __ __ __ __ __ __ __ __ _
 72
    65
 73
     2
 40
0.375
 49
0.25
 49
-0.125
  0
ENDTAB
  0
TABLE
  2
LAYER
 70
     6
  0
LAYER
  2
0
 70
     0
 62
     7
  6
CONTINUOUS
  0
LAYER
  2
CENTERLINE
 70
     0
 62
     1
  6
CENTER
  0
LAYER
  2
L3-7
 70
     0
 62
     2
  6
CONTINUOUS
  0
LAYER
  2
ADAPTER
 70
     0
 62
     3
  6
CONTINUOUS
  0
LAYER
  2
DRIVE_TANG
 70
     0
 62
     4
  6
CONTINUOUS
  0
LAYER
  2
2-7
 70
     0
 62
     2
  6
CONTINUOUS
  0
ENDTAB
  0
TABLE
  2
STYLE
 70
     2
  0
STYLE
  2
STANDARD
 70
     0
 40
0.0
 41
1.0
 50
0.0
 71
     0
 42
0.2
  3
txt
  4

  0
STYLE
  2
ARIAL
 70
     0
 40
0.0
 41
1.0
 50
0.0
 71
     0
 42
0.2
  3
txt
  4

  0
ENDTAB
  0
TABLE
  2
VIEW
 70
     0
  0
ENDTAB
  0
TABLE
  2
UCS
 70
     0
  0
ENDTAB
  0
TABLE
  2
APPID
 70
     1
  0
APPID
  2
ACAD
 70
     0
  0
ENDTAB
  0
TABLE
  2
DIMSTYLE
 70
     1
  0
DIMSTYLE
  2
STANDARD
 70
     0
  3

  4

  5

  6

  7

 40
1.0
 41
0.125
 42
0.0625
 43
0.25
 44
0.0625
 45
0.0
 46
0.0
 47
0.0
 48
0.0
140
0.125
141
0.09
142
0.0
143
25.399999999999999
144
1.0
145
0.0
146
1.0
147
0.09
 71
     0
 72
     0
 73
     1
 74
     1
 75
     0
 76
     0
 77
     0
 78
     4
170
     0
171
     2
172
     0
173
     0
174
     0
175
     0
176
   256
177
   256
178
   256
  0
ENDTAB
  0
ENDSEC
  0
SECTION
  2
BLOCKS
  0
BLOCK
  8
0
  2
$MODEL_SPACE
 70
     0
 10
0.0
 20
0.0
 30
0.0
  3
$MODEL_SPACE
  1

  0
ENDBLK
  5
21
  8
0
  0
BLOCK
 67
     1
  8
0
  2
$PAPER_SPACE
 70
     0
 10
0.0
 20
0.0
 30
0.0
  3
$PAPER_SPACE
  1

  0
ENDBLK
  5
1D
 67
     1
  8
0
  0
ENDSEC
  0
SECTION
  2
ENTITIES
  0
LINE
  5
75
  8
L3-7
 10
0.3580256331952814
 20
0.4860574606207821
 30
0.0
 11
5.1092068875952821
 21
0.4860574606207818
 31
0.0
  0
LINE
  5
77
  8
L3-7
 10
0.3580256331952816
 20
-2.0729977393792178
 30
0.0
 11
5.1092068875952821
 21
-2.0729977393792178
 31
0.0
  0
LINE
  5
79
  8
CENTERLINE
 10
-0.219139739604718
 20
-0.7934701393792182
 30
0.0
 11
5.6863722603952809
 21
-0.7934701393792182
 31
0.0
  0
CIRCLE
  5
7C
  8
L3-7
 10
0.528891780395282
 20
-0.7934701393792182
 30
0.0
 40
0.312000009984
  0
CIRCLE
  5
7D
  8
L3-7
 10
1.946214660395281
 20
-0.7934701393792182
 30
0.0
 40
0.312000009984
  0
CIRCLE
  5
7E
  8
L3-7
 10
3.5210178603952809
 20
-0.7934701393792182
 30
0.0
 40
0.312000009984
  0
CIRCLE
  5
7F
  8
L3-7
 10
4.9383407403952821
 20
-0.7934701393792182
 30
0.0
 40
0.312000009984
  0
CIRCLE
  5
82
  8
L3-7
 10
1.237553220395281
 20
-0.7934701393792182
 30
0.0
 40
1.0590551519999989
  0
CIRCLE
  5
83
  8
L3-7
 10
4.2296793003952811
 20
-0.7934701393792182
 30
0.0
 40
1.0590551519999989
  0
ARC
  5
87
  8
L3-7
 10
3.1469499330014901
 20
-0.793470139379218
 30
0.0
 40
2.3425719273937911
 50
326.89286183681821
 51
33.107138163181709
  0
ARC
  5
88
  8
L3-7
 10
2.3202825877890731
 20
-0.793470139379218
 30
0.0
 40
2.3425719273937911
 50
146.89286183681821
 51
213.1071381631817
  0
LINE
  5
CC
  8
L3-7
 10
-0.0222893396047182
 20
4.1831711419032747
 30
0.0
 11
-0.0222893396047182
 21
7.3233287227032768
 31
0.0
  0
LINE
  5
CE
  8
L3-7
 10
-0.0222893396047182
 20
4.1831711419032747
 30
0.0
 11
5.4895218603952811
 21
4.1831711419032764
 31
0.0
  0
LINE
  5
CF
  8
L3-7
 10
-0.0222893396047182
 20
7.3233287227032768
 30
0.0
 11
5.4895218603952793
 21
7.323328722703276
 31
0.0
  0
LINE
  5
D1
  8
L3-7
 10
5.2887344523952811
 20
3.3863207227032759
 30
0.0
 11
5.2887344523952811
 21
4.1831711419032764
 31
0.0
  0
LINE
  5
D2
  8
L3-7
 10
3.1706241483952811
 20
3.3863207227032759
 30
0.0
 11
3.1706241483952811
 21
4.1831711419032764
 31
0.0
  0
LINE
  5
D3
  8
L3-7
 10
3.1706241483952811
 20
3.3863207227032759
 30
0.0
 11
5.2887344523952811
 21
3.3863207227032759
 31
0.0
  0
LINE
  5
D4
  8
L3-7
 10
0.1784980683952816
 20
3.3863207227032759
 30
0.0
 11
0.1784980683952816
 21
4.1831711419032764
 31
0.0
  0
LINE
  5
D5
  8
L3-7
 10
2.2966083723952821
 20
3.3863207227032759
 30
0.0
 11
2.2966083723952821
 21
4.1831711419032764
 31
0.0
  0
LINE
  5
D6
  8
L3-7
 10
2.2966083723952821
 20
3.3863207227032759
 30
0.0
 11
0.1784980683952816
 21
3.3863207227032759
 31
0.0
  0
LINE
  5
D7
  8
L3-7
  6
HIDDEN
 10
0.3580256331952805
 20
4.1831711419032764
 30
0.0
 11
0.3580256331952816
 21
7.3233287227032777
 31
0.0
  0
POLYLINE
  5
11B
  8
L3-7
 66
     1
 10
0.0
 20
0.0
 30
0.0
 70
     1
  0
VERTEX
  5
D7E
  8
L3-7
 10
1.078440936393162
 20
-0.5178795793792183
 30
0.0
  0
VERTEX
  5
D7F
  8
L3-7
 10
0.9193286523910424
 20
-0.7934701393792182
 30
0.0
  0
VERTEX
  5
D80
  8
L3-7
 10
1.0784409363931611
 20
-1.0690606993792171
 30
0.0
  0
VERTEX
  5
D81
  8
L3-7
 10
1.396665504397401
 20
-1.069060699379218
 30
0.0
  0
VERTEX
  5
D82
  8
L3-7
 10
1.555777788399521
 20
-0.7934701393792186
 30
0.0
  0
VERTEX
  5
D83
  8
L3-7
 10
1.396665504397401
 20
-0.5178795793792185
 30
0.0
  0
SEQEND
  5
D84
  8
L3-7
  0
CIRCLE
  5
11C
  8
L3-7
 10
1.237553220395281
 20
-0.7934701393792182
 30
0.0
 40
0.25590552
  0
CIRCLE
  5
11D
  8
L3-7
 10
4.2296793003952811
 20
-0.7934701393792182
 30
0.0
 40
0.25590552
  0
POLYLINE
  5
11E
  8
L3-7
 66
     1
 10
0.0
 20
0.0
 30
0.0
 70
     1
  0
VERTEX
  5
D85
  8
L3-7
 10
4.0705670163931611
 20
-0.5178795793792183
 30
0.0
  0
VERTEX
  5
D86
  8
L3-7
 10
3.911454732391042
 20
-0.7934701393792182
 30
0.0
  0
VERTEX
  5
D87
  8
L3-7
 10
4.0705670163931611
 20
-1.0690606993792171
 30
0.0
  0
VERTEX
  5
D88
  8
L3-7
 10
4.388791584397401
 20
-1.069060699379218
 30
0.0
  0
VERTEX
  5
D89
  8
L3-7
 10
4.5479038683995201
 20
-0.7934701393792186
 30
0.0
  0
VERTEX
  5
D8A
  8
L3-7
 10
4.388791584397401
 20
-0.5178795793792185
 30
0.0
  0
SEQEND
  5
D8B
  8
L3-7
  0
LINE
  5
11F
  8
L3-7
 10
1.555777788399521
 20
3.0930136267032751
 30
0.0
 11
1.555777788399521
 21
3.3725411947032762
 31
0.0
  0
LINE
  5
120
  8
L3-7
 10
1.396665504397401
 20
3.093013626703276
 30
0.0
 11
1.396665504397401
 21
3.3725411947032762
 31
0.0
  0
LINE
  5
121
  8
L3-7
 10
1.0784409363931611
 20
3.093013626703276
 30
0.0
 11
1.0784409363931611
 21
3.3725411947032762
 31
0.0
  0
LINE
  5
122
  8
L3-7
 10
0.9193286523910419
 20
3.093013626703276
 30
0.0
 11
0.9193286523910419
 21
3.3725411947032762
 31
0.0
  0
LINE
  5
123
  8
L3-7
 10
1.555777788399521
 20
3.0930136267032751
 30
0.0
 11
0.9193286523910419
 21
3.093013626703276
 31
0.0
  0
LINE
  5
124
  8
L3-7
 10
0.9114546363910422
 20
3.3725411947032762
 30
0.0
 11
1.5636518043995209
 21
3.3725411947032762
 31
0.0
  0
LINE
  5
125
  8
L3-7
 10
0.9114546363910422
 20
3.3725411947032762
 30
0.0
 11
0.9114546363910422
 21
3.3863207227032759
 31
0.0
  0
LINE
  5
126
  8
L3-7
 10
1.5636518043995209
 20
3.3725411947032762
 30
0.0
 11
1.5636518043995209
 21
3.3863207227032759
 31
0.0
  0
ARC
  5
129
  8
L3-7
 10
1.237553220395281
 20
3.1135188767032749
 30
0.0
 40
0.2567257299999997
 50
184.5812200852769
 51
355.41877991472302
  0
ARC
  5
12A
  8
L3-7
 10
4.2296793003952811
 20
3.1135188767032749
 30
0.0
 40
0.2567257299999997
 50
184.5812200852769
 51
355.41877991472302
  0
LINE
  5
12B
  8
L3-7
 10
3.9035807163910419
 20
3.3725411947032762
 30
0.0
 11
4.5557778843995207
 21
3.3725411947032762
 31
0.0
  0
LINE
  5
12C
  8
L3-7
 10
4.5479038683995201
 20
3.0930136267032751
 30
0.0
 11
3.911454732391042
 21
3.093013626703276
 31
0.0
  0
LINE
  5
12D
  8
L3-7
 10
3.9035807163910419
 20
3.3725411947032762
 30
0.0
 11
3.9035807163910419
 21
3.3863207227032759
 31
0.0
  0
LINE
  5
12E
  8
L3-7
 10
3.911454732391042
 20
3.093013626703276
 30
0.0
 11
3.911454732391042
 21
3.3725411947032762
 31
0.0
  0
LINE
  5
12F
  8
L3-7
 10
4.0705670163931611
 20
3.093013626703276
 30
0.0
 11
4.0705670163931611
 21
3.3725411947032762
 31
0.0
  0
LINE
  5
130
  8
L3-7
 10
4.388791584397401
 20
3.093013626703276
 30
0.0
 11
4.388791584397401
 21
3.3725411947032762
 31
0.0
  0
LINE
  5
131
  8
L3-7
 10
4.5479038683995201
 20
3.0930136267032751
 30
0.0
 11
4.5479038683995201
 21
3.3725411947032762
 31
0.0
  0
LINE
  5
132
  8
L3-7
 10
4.5557778843995207
 20
3.3725411947032762
 30
0.0
 11
4.5557778843995207
 21
3.3863207227032759
 31
0.0
  0
LINE
  5
176
  8
L3-7
 10
1.6342146504112809
 20
1.8115175227032749
 30
0.0
 11
1.6342146504112809
 21
3.3863207227032759
 31
0.0
  0
LINE
  5
177
  8
L3-7
 10
2.258214670379282
 20
1.8115175227032749
 30
0.0
 11
2.258214670379282
 21
3.3863207227032759
 31
0.0
  0
LINE
  5
178
  8
L3-7
 10
2.258214670379282
 20
1.8115175227032749
 30
0.0
 11
1.6342146504112809
 21
1.8115175227032749
 31
0.0
  0
LINE
  5
188
  8
L3-7
 10
3.2090178504112812
 20
1.8115175227032749
 30
0.0
 11
3.2090178504112812
 21
3.3863207227032759
 31
0.0
  0
LINE
  5
189
  8
L3-7
 10
3.8330178703792819
 20
1.8115175227032749
 30
0.0
 11
3.8330178703792819
 21
3.3863207227032759
 31
0.0
  0
LINE
  5
18A
  8
L3-7
 10
3.2090178504112812
 20
1.8115175227032749
 30
0.0
 11
3.8330178703792819
 21
1.8115175227032749
 31
0.0
  0
LINE
  5
18B
  8
ADAPTER
 10
0.3910965003952818
 20
7.7233287355032774
 30
0.0
 11
5.076136020395281
 21
7.7233287355032774
 31
0.0
  0
LINE
  5
18C
  8
ADAPTER
 10
0.3910965003952818
 20
7.7233287355032774
 30
0.0
 11
0.3910965003952818
 21
7.3233287227032768
 31
0.0
  0
LINE
  5
18D
  8
ADAPTER
 10
5.076136020395281
 20
7.7233287355032774
 30
0.0
 11
5.076136020395281
 21
7.3233287227032768
 31
0.0
  0
LINE
  5
225
  8
ADAPTER
 10
0.3910965003952818
 20
7.3233287227032768
 30
0.0
 11
5.076136020395281
 21
7.3233287227032768
 31
0.0
  0
LINE
  5
36A
  8
L3-7
  6
HIDDEN
 10
2.5367658603952812
 20
7.4020688827032757
 30
0.0
 11
2.5367658603952812
 21
7.7957696827032761
 31
0.0
  0
LINE
  5
36B
  8
L3-7
  6
HIDDEN
 10
2.9304666603952811
 20
7.7957696827032761
 30
0.0
 11
2.9304666603952811
 21
7.4020688827032757
 31
0.0
  0
LINE
  5
36C
  8
L3-7
  6
HIDDEN
 10
2.1824351403952811
 20
7.7957696827032761
 30
0.0
 11
2.1824351403952811
 21
7.3233287227032768
 31
0.0
  0
LINE
  5
36D
  8
L3-7
  6
HIDDEN
 10
3.2847973803952808
 20
7.7957696827032761
 30
0.0
 11
3.2847973803952808
 21
7.3233287227032777
 31
0.0
  0
LINE
  5
36E
  8
L3-7
  6
HIDDEN
 10
2.9304666603952811
 20
7.4020688827032757
 30
0.0
 11
2.5367658603952812
 21
7.4020688827032757
 31
0.0
  0
LINE
  5
36F
  8
L3-7
  6
HIDDEN
 10
2.1824351403952811
 20
7.7957696827032761
 30
0.0
 11
2.5367658603952812
 21
7.7957696827032761
 31
0.0
  0
LINE
  5
370
  8
L3-7
  6
HIDDEN
 10
2.9304666603952811
 20
7.7957696827032761
 30
0.0
 11
3.2847973803952808
 21
7.7957696827032761
 31
0.0
  0
CIRCLE
  5
911
  8
L3-7
 10
2.7336162603952809
 20
-0.7934701393792182
 30
0.0
 40
0.312000009984
  0
LINE
  5
95A
  8
L3-7
  6
HIDDEN
 10
5.1092068875952821
 20
4.1831711419032764
 30
0.0
 11
5.1092068875952812
 21
7.3233287227032777
 31
0.0
  0
LINE
  5
95B
  8
L3-7
 10
5.4895218603952811
 20
4.1831711419032747
 30
0.0
 11
5.4895218603952811
 21
7.3233287227032768
 31
0.0
  0
LINE
  5
95C
  8
L3-7
 10
3.0456162703792811
 20
1.8115175227032749
 30
0.0
 11
3.0456162703792811
 21
4.1831711419032747
 31
0.0
  0
LINE
  5
95D
  8
L3-7
 10
2.4216162504112808
 20
1.8115175227032749
 30
0.0
 11
2.4216162504112821
 21
4.1831711419032747
 31
0.0
  0
LINE
  5
95E
  8
L3-7
 10
2.4216162504112808
 20
1.8115175227032749
 30
0.0
 11
3.0456162703792811
 21
1.8115175227032749
 31
0.0
  0
LINE
  5
A99
  8
DRIVE_TANG
  6
HIDDEN
 10
2.5367658603952812
 20
7.4020688827032757
 30
0.0
 11
2.9304666603952811
 21
7.4020688827032757
 31
0.0
  0
LINE
  5
A9A
  8
DRIVE_TANG
  6
HIDDEN
 10
2.1910965579952801
 20
8.9871083035032768
 30
0.0
 11
3.27613596279528
 21
8.9871083035032768
 31
0.0
  0
LINE
  5
A9C
  8
DRIVE_TANG
  6
HIDDEN
 10
2.5367658603952812
 20
7.8189980299032769
 30
0.0
 11
2.5367658603952812
 21
7.4020688827032757
 31
0.0
  0
LINE
  5
A9F
  8
DRIVE_TANG
  6
HIDDEN
 10
2.1910965579952801
 20
7.8189980299032769
 30
0.0
 11
2.5367658603952812
 21
7.8189980299032769
 31
0.0
  0
LINE
  5
AA1
  8
DRIVE_TANG
  6
HIDDEN
 10
2.1910965579952801
 20
8.9871083035032768
 30
0.0
 11
2.1910965579952801
 21
7.8189980299032769
 31
0.0
  0
LINE
  5
AA2
  8
DRIVE_TANG
  6
HIDDEN
 10
2.9304666603952811
 20
7.4020688827032757
 30
0.0
 11
2.9304666603952811
 21
7.8189980299032751
 31
0.0
  0
LINE
  5
AA5
  8
DRIVE_TANG
  6
HIDDEN
 10
2.9304666603952811
 20
7.8189980299032751
 30
0.0
 11
3.2761359627952809
 21
7.8189980299032769
 31
0.0
  0
LINE
  5
AA7
  8
DRIVE_TANG
  6
HIDDEN
 10
3.27613596279528
 20
8.9871083035032768
 30
0.0
 11
3.2761359627952809
 21
7.8189980299032769
 31
0.0
  0
TEXT
  5
BB0
  8
0
 10
-0.8712233801471498
 20
1.1053394563573411
 30
0.0
 40
0.125
  1
THE ADAPTER SHOWN IN THIS DRAWING IS ONLY TO ILLUSTRATE A TYPICAL ADAPTER
  7
ARIAL
  0
CIRCLE
  5
C31
  8
2-7
  6
HIDDEN
 10
2.7336162603952809
 20
-0.7934701393792172
 30
0.0
 40
1.0826772
  0
LINE
  5
C32
  8
ADAPTER
 10
3.844500637391572
 20
0.3285771406207822
 30
0.0
 11
3.2900399623952459
 21
0.5570233138712362
 31
0.0
  0
ARC
  5
C33
  8
ADAPTER
 10
2.7336162603952809
 20
-0.7934701393792181
 30
0.0
 40
1.460629967999999
 50
50.191993748887789
 51
129.80800625111209
  0
LINE
  5
C34
  8
ADAPTER
 10
3.8445006373915751
 20
-1.9155174193792179
 30
0.0
 11
3.2900399623952459
 21
-2.1439635926296701
 31
0.0
  0
ARC
  5
C35
  8
ADAPTER
 10
2.7336162603952809
 20
-0.7934701393792181
 30
0.0
 40
1.460629967999999
 50
230.19199374888771
 51
309.8080062511122
  0
CIRCLE
  5
C36
  8
ADAPTER
  6
HIDDEN
 10
2.7336162603952809
 20
-0.7934701393792181
 30
0.0
 40
1.1154999999999999
  0
CIRCLE
  5
C37
  8
ADAPTER
  6
HIDDEN
 10
2.7336162603952809
 20
-0.7934701393792181
 30
0.0
 40
1.006219572934834
  0
ARC
  5
C38
  8
ADAPTER
  6
HIDDEN
 10
2.7336162603952809
 20
-0.7934701393792181
 30
0.0
 40
1.460629967999999
 50
129.80800625111209
 51
230.19199374888771
  0
CIRCLE
  5
C39
  8
ADAPTER
  6
HIDDEN
 10
2.7336162603952809
 20
-0.7934701393792181
 30
0.0
 40
0.625
  0
ARC
  5
C3A
  8
ADAPTER
  6
HIDDEN
 10
2.7336162603952809
 20
-0.7934701393792181
 30
0.0
 40
1.460629967999999
 50
309.8080062511122
 51
50.191993748887789
  0
LINE
  5
C3B
  8
ADAPTER
  6
HIDDEN
 10
4.6328289195952808
 20
0.0037739806207822
 30
0.0
 11
3.844500637391572
 21
0.3285771406207822
 31
0.0
  0
LINE
  5
C3C
  8
ADAPTER
  6
HIDDEN
 10
4.067616194091336
 20
-1.6497693793792181
 30
0.0
 11
4.067616194091336
 21
-1.895687817853154
 31
0.0
  0
LINE
  5
C3D
  8
ADAPTER
  6
HIDDEN
 10
4.2039981427153084
 20
-1.6497693793792181
 30
0.0
 11
4.2039981427153084
 21
-1.8956878178531571
 31
0.0
  0
LINE
  5
C3E
  8
ADAPTER
  6
HIDDEN
 10
4.4767620399632531
 20
-1.6497693793792181
 30
0.0
 11
4.4767620399632531
 21
-1.8956878178531571
 31
0.0
  0
LINE
  5
C3F
  8
ADAPTER
  6
HIDDEN
 10
4.6131439885872254
 20
-1.6497693793792181
 30
0.0
 11
4.6131439885872254
 21
-1.895687817853154
 31
0.0
  0
LINE
  5
C40
  8
ADAPTER
  6
HIDDEN
 10
4.0184010243043602
 20
-1.8438678331984459
 30
0.0
 11
3.8445006373915751
 21
-1.9155174193792179
 31
0.0
  0
ARC
  5
C41
  8
ADAPTER
 10
4.5449530142752357
 20
-1.8493070802738489
 30
0.0
 40
0.0824692778919425
 50
214.22194995232161
 51
325.77805004767879
  0
ARC
  5
C42
  8
ADAPTER
 10
4.1358071684033231
 20
-1.8493070802738489
 30
0.0
 40
0.0824692778919425
 50
214.2219499523211
 51
325.77805004767828
  0
ARC
  5
C43
  8
ADAPTER
 10
4.340380091339286
 20
-1.65603205706697
 30
0.0
 40
0.2757443010988207
 50
240.356905410038
 51
299.6430945899599
  0
LINE
  5
C44
  8
ADAPTER
 10
4.1358071684033231
 20
-1.931776358165791
 30
0.0
 11
4.5449530142752383
 21
-1.931776358165791
 31
0.0
  0
LINE
  5
C45
  8
ADAPTER
  6
HIDDEN
 10
4.0479311540913372
 20
-1.6497693793792181
 30
0.0
 11
4.6328290285872242
 21
-1.6497693793792181
 31
0.0
  0
LINE
  5
C46
  8
ADAPTER
  6
HIDDEN
 10
4.6328289195952808
 20
-1.5907142593792181
 30
0.0
 11
4.0184010243043602
 21
-1.5907142593792181
 31
0.0
  0
LINE
  5
C47
  8
ADAPTER
  6
HIDDEN
 10
4.0479311540913372
 20
-1.6497693793792181
 30
0.0
 11
4.0479311540913372
 21
-1.5907142593792181
 31
0.0
  0
LINE
  5
C48
  8
ADAPTER
  6
HIDDEN
 10
4.0184010243043602
 20
-1.5907142593792181
 30
0.0
 11
4.0184010243043602
 21
-1.8438678331984459
 31
0.0
  0
LINE
  5
C49
  8
ADAPTER
  6
HIDDEN
 10
4.6328289195952808
 20
0.0037739806207822
 30
0.0
 11
4.6328289195952808
 21
-1.5907142593792181
 31
0.0
  0
LINE
  5
C4A
  8
ADAPTER
  6
HIDDEN
 10
4.6328290285872242
 20
-1.6497693793792181
 30
0.0
 11
4.6328290285872242
 21
-1.5907142593792181
 31
0.0
  0
LINE
  5
C4B
  8
L3-7
  6
HIDDEN
 10
3.8162934603952809
 20
7.2052184827032759
 30
0.0
 11
1.6509390603952789
 21
7.2052184827032759
 31
0.0
  0
LINE
  5
C4C
  8
ADAPTER
  6
HIDDEN
 10
3.8491162603952831
 20
8.1884862907032758
 30
0.0
 11
1.618116260395281
 21
8.1884862907032758
 31
0.0
  0
LINE
  5
C4D
  8
ADAPTER
  6
HIDDEN
 10
1.65093906039528
 20
7.2052184827032759
 30
0.0
 11
3.8162934603952818
 21
7.2052184827032759
 31
0.0
  0
LINE
  5
C4E
  8
ADAPTER
  6
HIDDEN
 10
1.743116260395281
 20
7.4029955978043338
 30
0.0
 11
3.7241162603952831
 21
7.4029955978043338
 31
0.0
  0
LINE
  5
C4F
  8
ADAPTER
 10
1.272986292395281
 20
10.06348629070327
 30
0.0
 11
4.1942462283952811
 21
10.06348629070327
 31
0.0
  0
LINE
  5
C50
  8
ADAPTER
  6
HIDDEN
 10
1.743116260395281
 20
8.1884862907032758
 30
0.0
 11
1.743116260395281
 21
7.4029955978043338
 31
0.0
  0
LINE
  5
C51
  8
ADAPTER
 10
1.272986292395281
 20
10.06348629070327
 30
0.0
 11
1.272986292395281
 21
7.7233287355032756
 31
0.0
  0
LINE
  5
C52
  8
L3-7
  6
HIDDEN
 10
1.6509390603952789
 20
7.2052184827032759
 30
0.0
 11
1.6509390603952789
 21
7.323328722703276
 31
0.0
  0
LINE
  5
C53
  8
ADAPTER
  6
HIDDEN
 10
1.65093906039528
 20
7.323328722703276
 30
0.0
 11
1.65093906039528
 21
7.2052184827032759
 31
0.0
  0
LINE
  5
C54
  8
ADAPTER
  6
HIDDEN
 10
2.1086162603952801
 20
7.2052184827032759
 30
0.0
 11
2.1086162603952801
 21
7.4029955978043338
 31
0.0
  0
LINE
  5
C55
  8
ADAPTER
  6
HIDDEN
 10
3.3586162603952801
 20
7.2052184827032759
 30
0.0
 11
3.3586162603952801
 21
7.4029955978043338
 31
0.0
  0
LINE
  5
C56
  8
ADAPTER
  6
HIDDEN
 10
1.618116260395281
 20
10.06348629070327
 30
0.0
 11
1.618116260395281
 21
8.1884862907032758
 31
0.0
  0
LINE
  5
C57
  8
ADAPTER
 10
4.1942462283952819
 20
8.636320890703276
 30
0.0
 11
4.1942462283952819
 21
7.7233287355032756
 31
0.0
  0
LINE
  5
C58
  8
ADAPTER
  6
HIDDEN
 10
3.7241162603952831
 20
8.1884862907032758
 30
0.0
 11
3.7241162603952831
 21
7.4029955978043338
 31
0.0
  0
LINE
  5
C59
  8
L3-7
  6
HIDDEN
 10
3.8162934603952809
 20
7.2052184827032759
 30
0.0
 11
3.8162934603952809
 21
7.323328722703276
 31
0.0
  0
LINE
  5
C5A
  8
ADAPTER
  6
HIDDEN
 10
3.8162934603952818
 20
7.2052184827032759
 30
0.0
 11
3.8162934603952818
 21
7.323328722703276
 31
0.0
  0
LINE
  5
C5C
  8
ADAPTER
 10
4.6328289195952808
 20
9.9650610907032764
 30
0.0
 11
4.6328289195952808
 21
8.636320890703276
 31
0.0
  0
LINE
  5
C5D
  8
ADAPTER
  6
HIDDEN
 10
3.648576919595282
 20
9.9650610907032764
 30
0.0
 11
3.648576919595282
 21
8.636320890703276
 31
0.0
  0
LINE
  5
C5E
  8
ADAPTER
  6
HIDDEN
 10
3.8491162603952831
 20
10.06348629070327
 30
0.0
 11
3.8491162603952831
 21
8.1884862907032758
 31
0.0
  0
LINE
  5
C5F
  8
ADAPTER
 10
4.6328289195952808
 20
8.636320890703276
 30
0.0
 11
3.648576919595282
 21
8.636320890703276
 31
0.0
  0
POLYLINE
  5
C60
  8
ADAPTER
 66
     1
 10
0.0
 20
0.0
 30
0.0
 70
     1
  0
VERTEX
  5
D8C
  8
ADAPTER
 10
4.2039981427153101
 20
9.5369114549552432
 30
0.0
  0
VERTEX
  5
D8D
  8
ADAPTER
 10
4.0676161940913369
 20
9.3006909907032771
 30
0.0
  0
VERTEX
  5
D8E
  8
ADAPTER
 10
4.2039981427153101
 20
9.0644705264513092
 30
0.0
  0
VERTEX
  5
D8F
  8
ADAPTER
 10
4.4767620399632531
 20
9.0644705264513092
 30
0.0
  0
VERTEX
  5
D90
  8
ADAPTER
 10
4.6131439885872254
 20
9.3006909907032771
 30
0.0
  0
VERTEX
  5
D91
  8
ADAPTER
 10
4.4767620399632531
 20
9.5369114549552432
 30
0.0
  0
SEQEND
  5
D92
  8
ADAPTER
  0
CIRCLE
  5
C61
  8
ADAPTER
 10
4.3403800913392798
 20
9.3006909907032771
 30
0.0
 40
0.219347573948256
  0
LINE
  5
C62
  8
ADAPTER
 10
3.648576919595282
 20
9.9650610907032817
 30
0.0
 11
4.6328289195952808
 21
9.9650610907032764
 31
0.0
  0
LINE
  5
C63
  8
ADAPTER
 10
4.1942462283952811
 20
10.06348629070327
 30
0.0
 11
4.1942462283952811
 21
9.9650610907032782
 31
0.0
  0
ENDSEC
  0
EOF
